e phrygian

(/) Slide Up  (\) Slide Down  (h) Hammer On  (p) Pull Off  (b) Bend (r) Release (v) Vibrato
E|------------------------------
B|------------8--10----------8--
G|--7--9--10---------12--10-----
D|------------------------------
A|------------------------------
E|------------------------------



E|-----------------------------------------------------------
B|--------3--3-----------------------------------------------
G|-----2-----2-----------------------------------------------
D|--2--------0--------5--5--7-----7-----9------12--12--9--7--
A|--------------5--3-----3--5--5-----7-----10------10--7--5--
E|-----------------------------------------------------------



E|---------------------------------------------17--15--12h13p12--
B|------15--18--17---------18--15------17--15--------------------
G|--14--------------16h17----------16----------------------------
D|---------------------------------------------------------------
A|---------------------------------------------------------------
E|---------------------------------------------------------------



E|--------------------------------------------------------12h13p12------------------
B|--------------------------------18--15--13--12------13------------13--12----------
G|--7--9--10--12--10--12--14--17------------------14------------------------14--12--
D|----------------------------------------------------------------------------------
A|----------------------------------------------------------------------------------
E|----------------------------------------------------------------------------------



E|-------------------------------------------12--12--12--12--12--12--12--12--15--15--15--15-----
B|----------------------------------------------------------------------------------------------
G|--9h10h9h12--9h10--9h12--9h10h12--12p10p9-----------------------------------------------------
D|----------------------------------------------------------------------------------------------
A|----------------------------------------------------------------------------------------------
E|----------------------------------------------------------------------------------------------



E|--17--17--17--17--13--13--13--13--13--13--13--13------------------------
B|--------------------------------------------------12--------------------
G|------------------------------------------------------14--12------------
D|--------------------------------------------------------------14--------
A|------------------------------------------------------------------------
E|------------------------------------------------------------------12/5--



E|----------------------------------------------12--13--15------------------------------15-----
B|----------------------------------15--17--18--------------12--13--15--12---------------------
G|----------------------14--16--17------------------------------------------14--12-------------
D|-----------9--10--12--------------------------------------------------------------14---------
A|--5--7--8------------------------------------------------------------------------------------
E|---------------------------------------------------------------------------------------------



E|--10--12--13--------------------------12--10--8--10--8--7--8--7--5--7--5--3h5h5h5h5--
B|--------------10--12--13-------------------------------------------------------------
G|-------------------------------------------------------------------------------------
D|-------------------------------------------------------------------------------------
A|-------------------------------------------------------------------------------------
E|--------------------------10--12--13-------------------------------------------------
Line 1
Line 2
Line 3
Line 2
Line 4
Line 2
Line 5
Line 2
Line 6
Line 2
Line 1 http://www.guitartabcreator.com
Guitar Tab Creator is intended to store guitar tab created through the tool. It currently does not support in-line text editing. Any text you place in here will be lost. If you need to comment on your tab, please use the "Tab Notes" section located below.