e pentonic 13 dec

(/) Slide Up  (\) Slide Down  (h) Hammer On  (p) Pull Off  (b) Bend (r) Release (v) Vibrato
E|--12--15--17------------------------------------12--10--7-------------------
B|--------------15--12---------------------------------------8----------------
G|-------------------------------14--16-------------------------9-------------
D|----------------------14--12v----------17--14v-------------------7----------
A|--------------------------------------------------------------------10--7v--
E|----------------------------------------------------------------------------



E|------------12--10-----------------------------15--17--19-----------------------------19--17--
B|--10h12p10----------8--------------3--5--------------------17-----------------20--17----------
G|-----------------------9b12--2--4------------------------------16---------19------------------
D|-----------------------------------------5--7----------------------17b19----------------------
A|----------------------------------------------------------------------------------------------
E|----------------------------------------------------------------------------------------------



E|---------------------------------------------------------------------------------------------
B|-----5--8---------17--20---------------------------------------------------------------------
G|--4--------7--16----------19-----------7--------------19--2--4--7--------14--16--19----------
D|---------------------------------7--5---------19--17---------------5--7--------------17--19--
A|------------------------------5-----------17-------------------------------------------------
E|---------------------------------------------------------------------------------------------



E|--7p0--5p0--3p0--3h5p3h5p3h5p3h5p3---------------------10h12p10h--------
B|------------------------------------5h8p5h8p5h8p5h8p5-------------------
G|----------------------------------------------------------------12--12--
D|------------------------------------------------------------------------
A|------------------------------------------------------------------------
E|------------------------------------------------------------------------



E|--19p17p15--15p12p10--10p7p5--7p5p3--3h5p3--3h5--5h7p5--7h10p7--10h12p10--12h15p12--
B|------------------------------------------------------------------------------------
G|------------------------------------------------------------------------------------
D|------------------------------------------------------------------------------------
A|------------------------------------------------------------------------------------
E|------------------------------------------------------------------------------------
http://www.guitartabcreator.com
Guitar Tab Creator is intended to store guitar tab created through the tool. It currently does not support in-line text editing. Any text you place in here will be lost. If you need to comment on your tab, please use the "Tab Notes" section located below.