e min rock

(/) Slide Up  (\) Slide Down  (h) Hammer On  (p) Pull Off  (b) Bend (r) Release (v) Vibrato
E|--------------------------------------------------------------------------
B|-----------------------------------------------------2--------------------
G|--4p2p0--4p2p0--4p2p0--4p2p0--4p2p0--4p2p0-----2--4--2-----9--7-----------
D|--------------------------------------------5--------2--2--------5--7--9--
A|--------------------------------------------------------2-----------------
E|--------------------------------------------------------------------------



E|--0-----------3--3----------------------0-----------3--3-----------------12-------
B|--0-----3--------3-----------------15v--0-----3--------3---------------------15v--
G|--0--------1----------------------------0--------1--------------------------------
D|--0--2----------------------------------0--2--------------------------------------
A|--2--2--2--1--2--2--7--5--0--2--0-------2--2--2--1--2--2--7--5--0--2--0-----------
E|--0-------------------------------------0-----------------------------------------



E|--0-----------3--3----------------------------------0-----------3--3-------------
B|--0-----3--------3-----------------------------15v--0-----3--------3--15v--15/3--
G|--0--------1-----------------------16--14--12-------0--------1-------------------
D|--0--2----------------------------------------------0--2-------------------------
A|--2--2--2--1--2--2--7--5--0--2--0-------------------2--2--2--1--2--2-------------
E|--0-------------------------------------------------0----------------------------



E|--------------------------------------------------------------------------3--3--3--3--3--3-----
B|--------------------------------------------------------------------------3--3--3--3--3--3--3--
G|--4--2--------------------4--2--------------------4--2--------------------------------2--2-----
D|--------------------------------------------------------------------------2--2--------2--2-----
A|--------------3--2--2--0--------------3--2--2--0--------------3--2--2--0--------2--2--------2--
E|--------5--3--1--0--------------5--3--1--0--------------5--3--1--0-----------------------------



E|--0-----3-----3--3----------------------0-----3-----3--3-----------------12-------
B|--0--------------3-----------------15v--0--------------3---------------------15v--
G|--0--------1----------------------------0--------1--------------------------------
D|--0--2----------------------------------0--2--------------------------------------
A|--2--2--2--1--2--2--7--5--0--2--0-------2--2--2--1--2--2--7--5--0--2--0-----------
E|--0-------------------------------------0-----------------------------------------



E|--0-----3--------3--3----------------------------------0-----3-----3--3-------------
B|--0-----------------3-----------------------------15v--0--------------3--15v--15/3--
G|--0-----------1-----------------------16--14--12-------0--------1-------------------
D|--0--2-------------------------------------------------0--2-------------------------
A|--2--2--2-----1--2--2--7--5--0--2--0-------------------2--2--2--1--2--2-------------
E|--0----------------------------------------------------0----------------------------



E|--------------------------------------------------------------------------3--3--3--3--3--3-----
B|--------------------------------------------------------------------------3--3--3--3--3--3--3--
G|--4--2--------------------4--2--------------------4--2--------------------------------2--2-----
D|--------------------------------------------------------------------------2--2--------2--2-----
A|--------------3--2--2--0--------------3--2--2--0--------------3--2--2--0--------2--2--------2--
E|--------5--3--1--0--------------5--3--1--0--------------5--3--1--0-----------------------------



E|-------------------------------------------15--12--10--7--5--3-------------------------
B|-----8--10-------------12--15------15--17----------------------------------------------
G|--7---------9--12--14----------14------------------------------------------------------
D|----------------------------------------------------------------5h7p5h7p5h7p5h7p5h7p5--
A|---------------------------------------------------------------------------------------
E|---------------------------------------------------------------------------------------



E|----------------------------------------------15--12h15p12h15p12h15p12h15p12--10h12h12h12h12h12h12--
B|-----3--5---------15--17--------------15--12--------------------------------------------------------
G|--2--------4--14----------16--14--12----------------------------------------------------------------
D|----------------------------------------------------------------------------------------------------
A|----------------------------------------------------------------------------------------------------
E|----------------------------------------------------------------------------------------------------



E|--------------------------------------------------12v--15--15--15--15--15--15--10v--15--15--15--15--
B|-------------------------------10----------15b17----------------------------------------------------
G|--7h9p7h9p7h9p7h9p7h9p7-----9----------14-----------------------------------------------------------
D|-------------------------7---------12---------------------------------------------------------------
A|----------------------------------------------------------------------------------------------------
E|----------------------------------------------------------------------------------------------------



E|--7v--10--10--10--10--5v--10--10--10--10--7--7--7--7------------------15--17--17/3--
B|--------------------------------------------------------------15--17----------------
G|------------------------------------------------------14--16------------------------
D|------------------------------------------------------------------------------------
A|------------------------------------------------------------------------------------
E|------------------------------------------------------------------------------------



E|--0-----3-----3--3----------------------0-----3-----3--3-----------------12-------
B|--0--------------3-----------------15v--0--------------3---------------------15v--
G|--0--------1----------------------------0--------1--------------------------------
D|--0--2----------------------------------0--2--------------------------------------
A|--2--2--2--1--2--2--7--5--0--2--0-------2--2--2--1--2--2--7--5--0--2--0-----------
E|--0-------------------------------------0-----------------------------------------



E|--0-----3-----3--3----------------------------------0-----3-----3--3-------------------------------
B|--0--------------3-----------------------------15v--0--------------------------------15v--15/3-----
G|--0--------1-----------------------16--14--12-------0--------1-------------------------------------
D|--0--2----------------------------------------------0--2-------------------------------------------
A|--2--2--2--1--2--2--7--5--0--2--0-------------------2--2--2--1--2--2--7--5--0--2--0----------------
E|--0-------------------------------------------------0----------------------------------------------



E|--------------------------------------------------------------------------3--3--3--3--3--3-----
B|--------------------------------------------------------------------------3--3--3--3--------3--
G|--4--2--------------------4--2--------------------4--2--------------------------------2--2-----
D|--------------------------------------------------------------------------2--2--------2--2-----
A|--------------3--2--2--0--------------3--2--2--0--------------3--2--2--0--------2--2--------2--
E|--------5--3--1--0--------------5--3--1--0--------------5--3--1--0-----------------------------



E|-------------------------12v--15--15--15--15--17--17--17--17--15v--17--17--17--17--19--19--19--19--
B|-----10--8--------12p10----------------------------------------------------------------------------
G|--7---------9b12-----------------------------------------------------------------------------------
D|---------------------------------------------------------------------------------------------------
A|---------------------------------------------------------------------------------------------------
E|---------------------------------------------------------------------------------------------------
http://www.guitartabcreator.com
Guitar Tab Creator is intended to store guitar tab created through the tool. It currently does not support in-line text editing. Any text you place in here will be lost. If you need to comment on your tab, please use the "Tab Notes" section located below.