e min riff

(/) Slide Up  (\) Slide Down  (h) Hammer On  (p) Pull Off  (b) Bend (r) Release (v) Vibrato


E|-----------------------------------------------------------------3--3--
B|-----------------------------------------------------------------0--0--
G|-----------------------------4--4--------------------------------0--0--
D|--2--5-----------------2--2--2--2--------------------2--2--------0--0--
A|--------0--2--5--2--2--0--0--------------0--2--2--2--0--0--2--2--2--2--
E|-----------------0--0--------------0--3--------0--0--------3--3--0--0--



E|--------------------------------------------------------
B|--------------------------------------------------------
G|--------------------4--4--4-----------------------------
D|-----------2--2--2--2--2--2--0--0--0--------------------
A|--2--2--2--0--0--0-----------2--2--2--2--2--2-----5-----
E|--0--0--0-----------------------------3--3--3--0-----3--
http://www.guitartabcreator.com
Guitar Tab Creator is intended to store guitar tab created through the tool. It currently does not support in-line text editing. Any text you place in here will be lost. If you need to comment on your tab, please use the "Tab Notes" section located below.