e min pent acoustic

(/) Slide Up  (\) Slide Down  (h) Hammer On  (p) Pull Off  (b) Bend (r) Release (v) Vibrato


E|--0--0--3--0--------------0--3--3-----------3--0--
B|--3--0--3--0--5--8--------0--0-----3--------3--0--
G|--0--0--2--0--------7--4--0--0--------2-----2--0--
D|--2--0--0--2--------------2--0-----------0--0--2--
A|--2--2-----2--------------2--0-----------------2--
E|--0--3-----0--------------0--3-----------------0--



E|----------------------------------15--17--
B|--------------12--15--17--15--12----------
G|------12--14------------------------------
D|--14--------------------------------------
A|------------------------------------------
E|------------------------------------------



E|--0--0--3--3--3--3--0--0--3--3--3--3-----------------
B|--0--0--0--0--3--3--0--0--0--0--3--3-----------------
G|--0--0--0--0--2--2--0--0--0--0--2--2-----------------
D|--2--2--0--0--0--0--2--2--0--0--0--0--2--5--7--------
A|--2--2--2--2--------2--2--2--2-----------------5--7--
E|--0--0--3--3--------0--0--3--3-----------------------
http://www.guitartabcreator.com
Guitar Tab Creator is intended to store guitar tab created through the tool. It currently does not support in-line text editing. Any text you place in here will be lost. If you need to comment on your tab, please use the "Tab Notes" section located below.