E min pen

(/) Slide Up  (\) Slide Down  (h) Hammer On  (p) Pull Off  (b) Bend (r) Release (v) Vibrato

E|-----7------------------10--12----------17--15------------------19--17------17--19----------15--
B|--5-----8--------10--8--------------15----------17------17--20----------20----------12--15------
G|-----------7--9-----------------14------------------16----------------------------------14--14--
D|------------------------------------------------------------------------------------------------
A|------------------------------------------------------------------------------------------------
E|------------------------------------------------------------------------------------------------



E|--15--17------------------17--15--17--19--
B|--15--17--20----------15------------------
G|--------------19--17----------------------
D|------------------------------------------
A|------------------------------------------
E|------------------------------------------
http://www.guitartabcreator.com
Guitar Tab Creator is intended to store guitar tab created through the tool. It currently does not support in-line text editing. Any text you place in here will be lost. If you need to comment on your tab, please use the "Tab Notes" section located below.