e min metal

(/) Slide Up  (\) Slide Down  (h) Hammer On  (p) Pull Off  (b) Bend (r) Release (v) Vibrato
E|--------------------------------------------------------------------------------------------------
B|--------------------------------------------------------------------------------------------------
G|-----------------------------------------------------------------------------7--------------------
D|-----------------------------------------5--5--5--5--5-----7--7--7--7--7--------5--7--7--7--7--7--
A|-----5--5--5--5--5-----7--7--7--7--7--------3--3--3--3--0-----5--5--5--5--5-----------------------
E|--3-----3--3--3--3--0-----5--5--5--5--3-----------------------------------------------------------



E|-----------------------------------------------12--15--12--15----------12--15--12--10--------------
B|---------------------------------------------------------------12--15------------------------------
G|---------------------------------------------------------------------------------------------------
D|-----------------------------------------5--7------------------------------------------------------
A|-----------7--7--7--7--------5--5--5--5--5--7------------------------------------------2--2--2--2--
E|--3--5--7--5--5--5--5--5--3--3--3--3--3--3--5------------------------------------------0--0--0--0--



E|---------------------------------------------------------------------------------------------------
B|---------------------------------------------------------------------------------------------------
G|---------------------------------------------------------------------------------------------------
D|--------------------------------------2--2--2--5--5--7--5------------------------------------------
A|--5--5--5--5--2--2--2--2--5--5--5--5--0--0--0--5--5--7--5-----10--12------12b14--------------------
E|--3--3--3--3--0--0--0--0--3--3--3--3-----------3--3--5--3--7----------10---------0--0--0--0--0--0--



E|--------------------7---------------------------------------------------------------
B|-----------------8------------------------------------------------------------------
G|--------------9---------------------------------------------------------------------
D|--9--9--9--9--------------------------------------5--------------------------9------
A|--7--7--7--7--------------------------------------------------------------------7v--
E|-----------------------0--0--0--0--0--0--0--0--3-----0--0--0--0--0--0--0--7---------



E|-----------------------------------------15--12--10-------------------------------------------
B|--------------15--12---------15--12--10------------------15--17----------15--17------5--8-----
G|--16--14--12-----------------------------------------14----------16--14----------16-----------
D|----------------------14p12-------------------------------------------------------------------
A|----------------------------------------------------------------------------------------------
E|----------------------------------------------------------------------------------------------



E|------------------12--17--17--17--17--15----------
B|--10--12--15----------17--17--17--17--15--17v-----
G|--------------14----------------------------------
D|--------------------------------------------------
A|--------------------------------------------------
E|--------------------------------------------------



E|--5h7h7h7h7h7---------------------------------15--17--19--15--17--19--15--17--19v--
B|------------------------------12--10-----------------------------------------------
G|---------------------------9----------12--14---------------------------------------
D|---------------------7--5----------------------------------------------------------
A|---------------7--5----------------------------------------------------------------
E|-----------------------------------------------------------------------------------
http://www.guitartabcreator.com
Guitar Tab Creator is intended to store guitar tab created through the tool. It currently does not support in-line text editing. Any text you place in here will be lost. If you need to comment on your tab, please use the "Tab Notes" section located below.