e min with chords

(/) Slide Up  (\) Slide Down  (h) Hammer On  (p) Pull Off  (b) Bend (r) Release (v) Vibrato
E|--3--3--3--3-----3--3--3--3--------0--
B|--3--0--0--3--3--3--0--3--3--------3--
G|--0--0--0--0--2--2--0--0--0--------2--
D|--0--2--0--2--0--0--2--0--0--------0--
A|--2--2--2--2-----------2--0--5--7--0--
E|--0--0--0--0-----------3--3--3--5--3--



E|--------------------------3--0--0--3--3--3--3--3--3--
B|--------------------------3--0--0--0--3--0--0--3--0--
G|--------------------------0--0--0--0--0--0--0--2--0--
D|--2--0--5--0--------------0--2--0--2--0--2--0--0--2--
A|--------------2--0--5-----0--2--2-----2--2--2--------
E|-----------------------3--3--0--3-----3--0--3--------



E|--------------------------------|-----------------------------------------
B|-----------8--5--------8--------|-------------8--10------------10---------
G|--9--9--7--------7--9-----7--9--|--------------------9--12b14------9--9v--
D|--------------------------------|--------7b9------------------------------
A|--------------------------------|--7--5-----------------------------------
E|--------------------------------|-----------------------------------------
http://www.guitartabcreator.com
Guitar Tab Creator is intended to store guitar tab created through the tool. It currently does not support in-line text editing. Any text you place in here will be lost. If you need to comment on your tab, please use the "Tab Notes" section located below.