E maj solo

(/) Slide Up  (\) Slide Down  (h) Hammer On  (p) Pull Off  (b) Bend (r) Release (v) Vibrato


E|--------------14--12--14--16---------------------12--9-------------------------12--14--16-----
B|--17--14--12------------------14--12------14--9---------12-----------------14-----------------
G|--------------------------------------13--------------------11h13------13---------------------
D|-------------------------------------------------------------------11-------------------------
A|----------------------------------------------------------------------------------------------
E|----------------------------------------------------------------------------------------------



E|--9--12--14--7--9--12----------------12/4--
B|-----------------------9--12---------------
G|------------------------------11--9--------
D|-------------------------------------------
A|-------------------------------------------
E|-------------------------------------------
http://www.guitartabcreator.com
Guitar Tab Creator is intended to store guitar tab created through the tool. It currently does not support in-line text editing. Any text you place in here will be lost. If you need to comment on your tab, please use the "Tab Notes" section located below.