e maj hammering

(/) Slide Up  (\) Slide Down  (h) Hammer On  (p) Pull Off  (b) Bend (r) Release (v) Vibrato
E|-------------------------------------------------------------------------------------
B|-------------------------------------------------------------------------------------
G|---------------------------------11h13---------11h13---------------------------------
D|--------9h11--------9h11--11h13---------11h13----------------------------------------
A|--9h11--------9h11------------------------------------11--11--9--9--11--11--9--9-----
E|------------------------------------------------------9---9---7--7--9---9---7--7-----



E|-----------------------------------------------------------------------------------------
B|-----------------------------------------------------------------------------------------
G|-----------------------------------------------------------------------------------------
D|--------------4--1--2--------------4--1h2p1--------------4--1--2--------------4--1h2p1v--
A|--------4--2-----------------4--2------------------4--2-----------------4--2-------------
E|--2--0-----------------2--0------------------2--0-----------------2--0-------------------



E|-----------------------------------------------------------------------------------------------
B|--------------------------------------------------------------------------------10--12--12-----
G|-----------------------------------------------------------------------------------------------
D|-----------------------------------------------------------------------------------------------
A|--------------------------------------4--2-----------------------------------------------------
E|--5--5--5--0--7--7--7--0--2--2--2--0--2--0--5--5--5--0--7--7--7--0--2--2--2--0-----------------



E|--------------------------------------------
B|----------------10--12----------------------
G|------13h14p13----------13--11--------------
D|--16----------------------------------------
A|--------------------------------12----------
E|------------------------------------11--14--



E|---------------------------------------------------------------------------------------------------
B|-----------9--7-----10--12-------------------------------------------19p17b--------14--12----------
G|--6--8--9--------8----------11-----------------------18--20--16------------16--18----------13--11--
D|-------------------------------------------------19--------------18--------------------------------
A|--------------------------------12-----------------------------------------------------------------
E|------------------------------------11h12p11\17----------------------------------------------------



E|-----9-----------12b14----------------------------------------------------------------------12-----
B|--7-----7--9h10---------10---------12v-------------------------------------------------------------
G|----------------------------11h13----------------------------------------------------11h13---------
D|------------------------------------------------------------------------9h11--11h13----------------
A|----------------------------------------11--11--4--4--6--6--7--7--9h11-----------------------------
E|----------------------------------------9---9---2--2--4--4--5--5-----------------------------------
http://www.guitartabcreator.com
Guitar Tab Creator is intended to store guitar tab created through the tool. It currently does not support in-line text editing. Any text you place in here will be lost. If you need to comment on your tab, please use the "Tab Notes" section located below.