e blues baby!

(/) Slide Up  (\) Slide Down  (h) Hammer On  (p) Pull Off  (b) Bend (r) Release (v) Vibrato


E|--------------------------|---------------------12--|--15--17--18-------------|--6p5--3--6---------
B|--------------------------|--11p10h11p10h11p10------|--------------17---------|-------------5--3v--
G|--------------------------|-------------------------|------------------19b21--|--------------------
D|--2-------------------5v--|-------------------------|-------------------------|--------------------
A|-----1--0--5-------7------|-------------------------|-------------------------|--------------------
E|--------------5h6---------|-------------------------|-------------------------|--------------------



E|--18p17--15--18-----------|---------------------10b12--|--3--5--6--10h12--15--17--18--|--
B|-----------------17--15v--|--------------10h11---------|------------------------------|--
G|--------------------------|--9b12--9b12----------------|------------------------------|--
D|--------------------------|----------------------------|------------------------------|--
A|--------------------------|----------------------------|------------------------------|--
E|--------------------------|----------------------------|------------------------------|--



E|-----------|-----------|----------------|-------------------3--|--------------15--12v--|--
B|-----------|-----------|--8--10--11bp8--|--8----------------3--|------15--17-----------|--
G|-----------|-----------|----------------|-----9--7b9--------0--|--14-------------------|--
D|-----------|-----------|----------------|-------------8--7--0--|-----------------------|--
A|-----------|--7--------|----------------|-------------------0--|-----------------------|--
E|--6p5--3v--|-----6p5v--|----------------|-------------------3--|-----------------------|--



E|--
B|--
G|--
D|--
A|--
E|--
http://www.guitartabcreator.com
Guitar Tab Creator is intended to store guitar tab created through the tool. It currently does not support in-line text editing. Any text you place in here will be lost. If you need to comment on your tab, please use the "Tab Notes" section located below.