e aeolian

(/) Slide Up  (\) Slide Down  (h) Hammer On  (p) Pull Off  (b) Bend (r) Release (v) Vibrato

E|-------------------------------------15b19------14--15------14--12b17--------------
B|--10------12--13--------------15p13---------13----------12-------------------------
G|------11----------12v--16p14-------------------------------------------7--9--9h11--
D|-----------------------------------------------------------------------------------
A|-----------------------------------------------------------------------------------
E|-----------------------------------------------------------------------------------



E|--7h8--7h8--7h8h8h8h8--12--14--15--------------12--14--15--12--14--15------14--15b17--
B|-----------------------------------12--13--15--------------------------13-------------
G|--------------------------------------------------------------------------------------
D|--------------------------------------------------------------------------------------
A|--------------------------------------------------------------------------------------
E|--------------------------------------------------------------------------------------
http://www.guitarrtabcreator.com

Use whammy bar on hammer ons and last bend
Guitar Tab Creator is intended to store guitar tab created through the tool. It currently does not support in-line text editing. Any text you place in here will be lost. If you need to comment on your tab, please use the "Tab Notes" section located below.