d min riff

(/) Slide Up  (\) Slide Down  (h) Hammer On  (p) Pull Off  (b) Bend (r) Release (v) Vibrato


E|----------------------------------------------------|----------10b13-----
B|----------------------------13--10--------------15--|------15------------
G|--------------7--5--10--12--------------14--12------|--------------------
D|--------7--5------------------------12--------------|--12----------------
A|--5--8----------------------------------------------|--------------------
E|----------------------------------------------------|--------------------



E|------------------------------------------------------|----------15b17--
B|------------------------------15--12--------------15--|------17---------
G|---------------10--7--12--14--------------14--12------|-----------------
D|---------9--7-------------------------15--------------|--15-------------
A|--8--10-----------------------------------------------|-----------------
E|------------------------------------------------------|-----------------
http://www.guitartabcreator.com
Guitar Tab Creator is intended to store guitar tab created through the tool. It currently does not support in-line text editing. Any text you place in here will be lost. If you need to comment on your tab, please use the "Tab Notes" section located below.