c major

(/) Slide Up  (\) Slide Down  (h) Hammer On  (p) Pull Off  (b) Bend (r) Release (v) Vibrato
E|--------------------------------------------------------------------------------------------
B|------15-------------15-------------15-------------15-------------17-------------17---------
G|----------12h14----------12h14----------12h14----------12h14----------14h16----------14h16--
D|--12-------------12-------------12-------------12-------------15-------------15-------------
A|--------------------------------------------------------------------------------------------
E|--------------------------------------------------------------------------------------------



E|-----------------------------------------------------------------------------------------------
B|------17-------------17-------------15-------------15-------------15-------------15------------
G|----------14h16----------14h16----------12h14----------12h14----------12h14----------12h14-----
D|--15-------------15-------------12-------------12-------------12-------------12----------------
A|-----------------------------------------------------------------------------------------------
E|-----------------------------------------------------------------------------------------------



E|--------------------------------------------------------------7p0--5p0--3p0--7p0--5p0--3p0--
B|------17-------------17-------------17-------------17---------------------------------------
G|----------14h16----------14h16----------14h16----------14h16--------------------------------
D|--15-------------15-------------15-------------15-------------------------------------------
A|--------------------------------------------------------------------------------------------
E|--------------------------------------------------------------------------------------------



E|------------------------------------------------------15-------------------------------------------
B|--3--3--3-----3--3--3-----3--3--3-----3--3--3-----12------13h15------------------------------------
G|--2--2--------2--2--------2--2--------2--2-----------------------14b16-----------------------------
D|-----------2-----------2-----------2-----------2------------------------7--7--7--7-----------------
A|-----------0-----------0-----------0-----------0------------------------7--5--7--5--5h7h7h7h7h7h7--
E|-----2--3--------2--3--------2--3--------2--3------------------------------------------------------



E|-----------------------------------------------------------13--12--7h10p7------------------------
B|--3--3--3-----3--3--3-----3--3--3----------------------12------------------15--17--18------------
G|--2--2--------2--2--------2--2--------1--1-----9h10p9----------------------------------17p16-----
D|-----------2-----------2-----------2--2--2--2----------------------------------------------------
A|-----------0-----------0-----------0--2-----2----------------------------------------------------
E|-----2--3--------2--3--------2--3----------------------------------------------------------------



E|--17p15p13---------10h12--10h12--10h12--10h12--10h12--10h12--13--12--10--13--12--10--13--12--10--
B|------------15/10--------------------------------------------------------------------------------
G|-------------------------------------------------------------------------------------------------
D|-------------------------------------------------------------------------------------------------
A|-------------------------------------------------------------------------------------------------
E|-------------------------------------------------------------------------------------------------



E|--13--12--10------------------------------------------------------------------------------15h17-----
B|--------------6--5--3-------------6h8----------------------15--17h18--------------18--17------------
G|-----------------------5p4-----7-------7--9--10-----------------------19--17--16--------------------
D|----------------------------5--------------------7--9--10-------------------------------------------
A|----------------------------------------------------------------------------------------------------
E|----------------------------------------------------------------------------------------------------



E|---------------------------------------------------0--0--0--7--0--0--0--10--0--0--0--------15-----
B|--18b20------18-----------3--3--3-------------3h5-------------------------------------------------
G|-----------------16h17/0--2--2-------------4------------------------------------------------------
D|---------15------------------------2--3h5---------------------------------------------------------
A|-----------------------------------0--------------------------------------------------------------
E|-----------------------------2--3--0--------------------------------------------------------------



E|--------------------15--17-----------
B|-------------15h17--13--15--18-------
G|---------16-----------------16-------
D|--15h17-------------------------12v--
A|-------------------------------------
E|-------------------------------------
http://www.guitartabcreator.com
Guitar Tab Creator is intended to store guitar tab created through the tool. It currently does not support in-line text editing. Any text you place in here will be lost. If you need to comment on your tab, please use the "Tab Notes" section located below.