c major

(/) Slide Up  (\) Slide Down  (h) Hammer On  (p) Pull Off  (b) Bend (r) Release (v) Vibrato
E|--------------
B|--------------
G|--------------
D|--------------
A|-----2----------3--2
E|--3-----1--0-x2-1--0



E|--------------------------
B|--------------------------
G|-----4-------------------
D|--3-------------------4---
A|--------3--2--5--3--2-2----
E|--------------------------
http://www.guitartabcreator.com
Guitar Tab Creator is intended to store guitar tab created through the tool. It currently does not support in-line text editing. Any text you place in here will be lost. If you need to comment on your tab, please use the "Tab Notes" section located below.