c maja min

(/) Slide Up  (\) Slide Down  (h) Hammer On  (p) Pull Off  (b) Bend (r) Release (v) Vibrato
E|----------------------------|-----------------------
B|----------------------------|-----------------------
G|----------12--10--9---------|--------9--7--5--------
D|--10--10-------------10--9--|--7--7-----------7--5--
A|----------------------------|-----------------------
E|----------------------------|-----------------------



E|--------------------------|------------------------------
B|--------------------------|------------------------------
G|--------------------------|------------------------------
D|--5--5--7--7--9--9--5--5--|------------------------------
A|--3--3--5--5--7--7--3--3--|--7--7--10--10--12--12--7--7--
E|--------------------------|--5--5--8---8---10--10--5--5--



E|------------------|-----------------|------------------------------|------------------------------
B|------------------|-----------------|------------------------------|----------17--15--13----------
G|------------------|-----------------|------------------------------|--14--14--------------14--12--
D|-----10--9--7--9--|-----7--5--2--5--|----------17--15--12----------|------------------------------
A|------------------|-----------------|--15--15--------------15--14--|------------------------------
E|--8---------------|--5--------------|------------------------------|------------------------------



E|--------------------------------------------------|-----------------------------------------------
B|--------------------------------------------------|-----------------------------------------------
G|--------------------------------------------------|-----------------------------------------------
D|-----------0-----------------------0--------------|--------------0--------------------------------
A|--3--2--------3--2-----0--3--2--------3--2--------|--12--10---------12--10------0--12--10---------
E|--------3-----------3-----------3-----------3--0--|----------12-------------12-------------12-----



E|--------------------|--------------8h10p8---------|-----------5h8p5--------
B|--------------------|-----------------------------|------------------------
G|--------------------|----------------------9--5v--|--2--5--7---------7--5--
D|--0-----------------|--10--12--14-----------------|------------------------
A|-----12--10---------|-----------------------------|------------------------
E|-------------12--0--|-----------------------------|------------------------
http://www.guitartabcreator.com
Guitar Tab Creator is intended to store guitar tab created through the tool. It currently does not support in-line text editing. Any text you place in here will be lost. If you need to comment on your tab, please use the "Tab Notes" section located below.