c maj shred solo

(/) Slide Up  (\) Slide Down  (h) Hammer On  (p) Pull Off  (b) Bend (r) Release (v) Vibrato

E|--------5--7--8--5--7--8--5--7--8--5--7--8--10--12--13--10--12--13--10--12--13--10--12--13-----
B|-----6-----------------------------------------------------------------------------------------
G|--7--------------------------------------------------------------------------------------------
D|-----------------------------------------------------------------------------------------------
A|-----------------------------------------------------------------------------------------------
E|-----------------------------------------------------------------------------------------------



E|--15--17--19--15--17--19--15--17--19--15--17--19-------------------------------------------------
B|--------------------------------------------------18------18--17--15--18--17--15--18--17--15-----
G|------------------------------------------------------17-----------------------------------------
D|-------------------------------------------------------------------------------------------------
A|-------------------------------------------------------------------------------------------------
E|-------------------------------------------------------------------------------------------------



E|--15--17--19--------------10--12--13--
B|--------------18--17--15--------------
G|--------------------------------------
D|--------------------------------------
A|--------------------------------------
E|--------------------------------------
http://www.guitartabcreator.com
Guitar Tab Creator is intended to store guitar tab created through the tool. It currently does not support in-line text editing. Any text you place in here will be lost. If you need to comment on your tab, please use the "Tab Notes" section located below.