C maj pentonic

(/) Slide Up  (\) Slide Down  (h) Hammer On  (p) Pull Off  (b) Bend (r) Release (v) Vibrato


E|----------------8--5--3-----------------------------12---------12p10p8---------12p10p8--
B|----------8--5-----------3--5-------------------13------13b15-----------8--10-----------
G|--7b9--5-----------------------7--9------12h14------------------------------------------
D|-------------------------------------10-------------------------------------------------
A|----------------------------------------------------------------------------------------
E|----------------------------------------------------------------------------------------



E|-----------------------------10--12--8--------------------------------------------------
B|--8h10--8h10--8h10--8h10--8-------------10--8-------------------------------------------
G|-----------------------------------------------(9p7v--12--12--12--12--10--10--10--10)----
D|----------------------------------------------------------------------------------------
A|----------------------------------------------------------------------------------------
E|----------------------------------------------------------------------------------------



E|----------------------------------------------
B|----------------------------------------------
G|--(5v--11--11--11--11--9--9--9--9--8--7--8--6)-
D|----------------------------------------------
A|----------------------------------------------
E|----------------------------------------------
(tapped except from 9p til end, only vibrato 7 for 12 and 10 and 5 for 11 9 7 8 6)
Guitar Tab Creator is intended to store guitar tab created through the tool. It currently does not support in-line text editing. Any text you place in here will be lost. If you need to comment on your tab, please use the "Tab Notes" section located below.