C maj pen 24 November

(/) Slide Up  (\) Slide Down  (h) Hammer On  (p) Pull Off  (b) Bend (r) Release (v) Vibrato

E|--------------------------------------------------
B|--------------------------------------5--8--------
G|--------------------------------------------7--9--
D|--7--5-----5--7--------------7--7-----------------
A|--5--3--5--5--7--------7--5--7--7--5--------------
E|--------3--3--5--5--8--5--3--5--5--3--------------



E|-----------------------
B|--1--------1-----------
G|--2--------2--1--------
D|--1--3--2--2--2--2--2--
A|-----3--2-----2--2--3--
E|-----1-----------0-----
http://www.guitartabcreator.com
Guitar Tab Creator is intended to store guitar tab created through the tool. It currently does not support in-line text editing. Any text you place in here will be lost. If you need to comment on your tab, please use the "Tab Notes" section located below.