c dor

(/) Slide Up  (\) Slide Down  (h) Hammer On  (p) Pull Off  (b) Bend (r) Release (v) Vibrato
E|-------------------------8--6--3--5----------------------------------------------------------------
B|-------------------------------------3h4h4h4h4-------------------------------15h16--18--16--15-----
G|-------------------------------------------------------------------------14------------------------
D|---------------------------------------------------------------------------------------------------
A|--6--5--3--0------------------------------------6p5------------------------------------------------
E|--------------5h6h6h6h6------------------------------5h6-------------------------------------------



E|-----------------------------------------18p17--15--13v--8--10--11-----------11p10p8-----------
B|--13v-------------------16--15--13--11v-----------------------------8h10h11-----------11p10p8--
G|-------15--14--12--10v-------------------------------------------------------------------------
D|-----------------------------------------------------------------------------------------------
A|-----------------------------------------------------------------------------------------------
E|-----------------------------------------------------------------------------------------------



E|----------------------------------------------------------------------------------
B|--18b20--18--18b20------------------------15------16------18------20--18--16p15v--
G|--------------------------------------14------15------17------19------------------
D|----------------------------------------------------------------------------------
A|--------------------17--15--13h15p13----------------------------------------------
E|----------------------------------------------------------------------------------



E|--15--17h18-------------10--11h13-------------8--6p5----------3--1p0----------
B|-------------18--16p15-------------13--11p10----------4--6h8----------0h1--3--
G|------------------------------------------------------------------------------
D|------------------------------------------------------------------------------
A|------------------------------------------------------------------------------
E|------------------------------------------------------------------------------



E|----------------------------------------------------------------------------------------------
B|--------------13--15--16-------------13--15h16------------------------------------------------
G|--12--14--15--------------12--14h15-----------------------------------------------------------
D|------------------------------------------------------------12--13--15-------------12h13--15--
A|------------------------------------------------12--13--15--------------12h13--15-------------
E|----------------------------------------------------------------------------------------------
http://www.guitartabcreator.com
Guitar Tab Creator is intended to store guitar tab created through the tool. It currently does not support in-line text editing. Any text you place in here will be lost. If you need to comment on your tab, please use the "Tab Notes" section located below.