a# blues licks

(/) Slide Up  (\) Slide Down  (h) Hammer On  (p) Pull Off  (b) Bend (r) Release (v) Vibrato


E|--20p18---------
B|---------19b21--
G|----------------
D|----------------
A|----------------
E|----------------



E|------------------
B|--13b15--16-------
G|-------------15v--
D|------------------
A|------------------
E|------------------



E|-------8-------8-------8--------
B|--6h7-----6h7-----6h7-----6h7v--
G|--------------------------------
D|--------------------------------
A|--------------------------------
E|--------------------------------
http://www.guitartabcreator.com
Guitar Tab Creator is intended to store guitar tab created through the tool. It currently does not support in-line text editing. Any text you place in here will be lost. If you need to comment on your tab, please use the "Tab Notes" section located below.