Attempts at maiden riff

(/) Slide Up  (\) Slide Down  (h) Hammer On  (p) Pull Off  (b) Bend (r) Release (v) Vibrato
E|--------------14--12--------------
B|--12------------------10--12------
G|------13--11------------------13--
D|----------------------------------
A|----------------------------------
E|----------------------------------



E|----------------10--7--------
B|-----10--12--8---------8-9----
G|--9--------------------------
D|-----------------------------
A|-----------------------------
E|-----------------------------



E|--------------------------
B|--------------------------
G|--------------------------
D|--------------3--2--0--5--
A|--0--2--3--5--------------
E|--------------------------



E|-----------------------------7h8p7--
B|------13--12--10---------10---------
G|--11--------------11--9-------------
D|------------------------------------
A|------------------------------------
E|------------------------------------



E|-----------------------------------------------12--11--10--------6--5----------
B|--15--13--12--------------12--11--10--------------------------7--------4-------
G|--------------14--12--11--------------9--8--7--------------8--------------3h4--
D|-------------------------------------------------------------------------------
A|-------------------------------------------------------------------------------
E|-------------------------------------------------------------------------------
http://www.guitartabcreator.com
Guitar Tab Creator is intended to store guitar tab created through the tool. It currently does not support in-line text editing. Any text you place in here will be lost. If you need to comment on your tab, please use the "Tab Notes" section located below.