4 chord rhythm with bluesy solo

(/) Slide Up  (\) Slide Down  (h) Hammer On  (p) Pull Off  (b) Bend (r) Release (v) Vibrato

E|--------------------------------
B|--2-----2--3-----3--4-----------
G|--2--------2--2-----------------
D|-----2--2-----------------------
A|--2--2-----------------------0--
E|-----------------------3--5-----



E|-----------------------------
B|-----------------------------
G|-----------------------------
D|-----------5--7--7--5--5-----
A|--3--5--6--------5--3--5-----
E|-----------------------3-----



E|------------------17------------------10--11----------------------------------------------
B|--------------16----------13------------------10------------------------------------3--3--
G|--17--17--17----------12------14------------------12--7v-------------------7--5--2-----2--
D|----------------------------------13---------------------------------7--5-----------------
A|----------------------------------------------------------------6p5-----------------------
E|----------------------------------------------------------8--5----------------------------
http://www.guitartabcreator.com
Guitar Tab Creator is intended to store guitar tab created through the tool. It currently does not support in-line text editing. Any text you place in here will be lost. If you need to comment on your tab, please use the "Tab Notes" section located below.