one thing remains

(/) Slide Up  (\) Slide Down  (h) Hammer On  (p) Pull Off  (b) Bend (r) Release (v) Vibrato

E|--------------------------------------------
B|--------------------------------------------
G|--12--9----------9--9-------------9---------
D|---------12--12--------12--10--9-----10--9--
A|--------------------------------------------
E|--------------------------------------------



E|-------------
B|-------------
G|--10--17--9--
D|-------------
A|-------------
E|-------------



E|--12------15------13--12------
B|------13------13----------13--
G|------------------------------
D|------------------------------
A|------------------------------
E|------------------------------



E|-12-12-12-12-12-12-12-12-------------------------------------------------------------------------
B|-------------------------13-13-13-13-13-13-13-13-12-12-12-12-12-12-12-12-12-12-12-12-12-12-12-12-
G|-------------------------------------------------------------------------------------------------
D|-------------------------------------------------------------------------------------------------
A|-------------------------------------------------------------------------------------------------
E|-------------------------------------------------------------------------------------------------



E|-12----15----13-12----
B|----13----13-------13-
G|----------------------
D|----------------------
A|----------------------
E|----------------------



E|---------------------------------------------------------------------------------
B|---------------------------------------------------------------------------------
G|-------------------------12-12-12-12---------------------------------------------
D|-10-10-10-10-12-12-12-12-------------10-10-10-10-9-9-9-9-9-9-9-9-9-9-9-9-9-9-9-9-
A|---------------------------------------------------------------------------------
E|---------------------------------------------------------------------------------



E|------------------------------------------------------------
B|------------------------------------------------------------
G|--9------12------9------12-------------12------------12-----
D|-----10------10-----10------10--10--9------9--10--9------9--
A|------------------------------------------------------------
E|------------------------------------------------------------



E|-12-12-12-12-12-12-12-12-------------------------------------------------------------------------
B|-------------------------13-13-13-13-13-13-13-13-12-12-12-12-12-12-12-12-12-12-12-12-12-12-12-12-
G|-------------------------------------------------------------------------------------------------
D|-------------------------------------------------------------------------------------------------
A|-------------------------------------------------------------------------------------------------
E|-------------------------------------------------------------------------------------------------



E|-12----15----13-12----
B|----13----13-------13-
G|----------------------
D|----------------------
A|----------------------
E|----------------------



E|------------------------------------------------------------
B|------------------------------------------------------------
G|--9------12------9------12-------------12------------12-----
D|-----10------10-----10------10--10--9------9--10--9------9--
A|------------------------------------------------------------
E|------------------------------------------------------------
http://www.guitartabcreator.com
Guitar Tab Creator is intended to store guitar tab created through the tool. It currently does not support in-line text editing. Any text you place in here will be lost. If you need to comment on your tab, please use the "Tab Notes" section located below.