12-12-12

(/) Slide Up  (\) Slide Down  (h) Hammer On  (p) Pull Off  (b) Bend (r) Release (v) Vibrato


E|--5-------------------------5-------------------------5-------------------------5-------------------
B|-----7--5--7--5-------5--------7--5--7--5-------5--------7--5--7--5-------5--------7--5--7--5-------
G|-----------------5/6-----------------------5/6-----------------------5/6-----------------------6/9--
D|-------------------------7-------------------------7-------------------------7----------------------
A|----------------------------------------------------------------------------------------------------
E|----------------------------------------------------------------------------------------------------



E|--10-------------------------10------------------5--------------------5-5-7-4h5r4---4-------
B|-----12-10-12-10-------10-------12-10-12-10--------7-5-7-5-----5------------------7---7-5---
G|-----------------10/11----------------------11\7-----------5/6------6-----------------------
D|--------------------------12-------------------------------------7--------------------------
A|--------------------------------------------------------------------------------------------
E|--------------------------------------------------------------------------------------------



E|-------------------------------
B|----10-12-10-12h13r12-10----10-
G|-11----------------------11----
D|-------------------------------
A|-------------------------------
E|-------------------------------
http://www.guitartabcreator.com
Guitar Tab Creator is intended to store guitar tab created through the tool. It currently does not support in-line text editing. Any text you place in here will be lost. If you need to comment on your tab, please use the "Tab Notes" section located below.