nothing better

(/) Slide Up  (\) Slide Down  (h) Hammer On  (p) Pull Off  (b) Bend (r) Release (v) Vibrato
E|--4--2--4--0--
B|--2--3--2--3--
G|--4--4--4--4--
D|--2--4--2--4--
A|--0--0--0--0--
E|--------------



E|--0--0--0-----------0-------------0--0--0--0--------------------
B|--0--3--2-----3----------------0-----0--3--2--------2--0-----0--
G|--1--2--2--------2--------1h2--------1--2--2--------------2-----
D|--2--0--2--0-------------------------2--0--2-----3--------------
A|--0--2--4----------------------------0--2--4--------------------
E|-----------------------0----------------------1-----------------



E|--4--4--0--0--4--2--0-----0-------------------------|--4--2--0--------0--------0--------
B|--2--2--3--0--2--------0-----------1-------------0--|--2--------0--4-----2--------2-----
G|--2--2--2--1--4-----------------2-----------1h2-----|--4-----------4-----------------0--
D|--4--3--0--2--2--------------2-----------2----------|--2-----------4--------2-----------
A|--------2-----0-------------------------------------|--0-----------0-----0--------------
E|--2--------0--------------1-----------0-------------|-----------------------------------



E|--0-----0--2--
B|--3--2--0--0--
G|--2--4--2--2--
D|--0--3--2--1--
A|-----4--0--2--
E|--------2-----
http://www.guitartabcreator.com
Guitar Tab Creator is intended to store guitar tab created through the tool. It currently does not support in-line text editing. Any text you place in here will be lost. If you need to comment on your tab, please use the "Tab Notes" section located below.