hlub

(/) Slide Up  (\) Slide Down  (h) Hammer On  (p) Pull Off  (b) Bend (r) Release (v) Vibrato

E|-----------
B|-----------
G|-----------
D|-----3-----
A|--1-----4--
E|-----------



E|-----------
B|-----------
G|-----------
D|-----3-----
A|--5-----1--
E|-----------



E|--5--------------------------------6--------------------------
B|-----5--------------------------6--------------7--------------
G|--------5--------------------6--------------------7-----------
D|-----------5--------------6-----------7--7--7--------9--------
A|--------------5--------6--------------------------------9--9--
E|-----------------5--6-----------------------------------------
http://www.guitartabcreator.com
Guitar Tab Creator is intended to store guitar tab created through the tool. It currently does not support in-line text editing. Any text you place in here will be lost. If you need to comment on your tab, please use the "Tab Notes" section located below.