Bossa

BOSSA

SALM x2
G|------------------
D|------------------
A|-0--0------------- x4
E|------3-3-2---0-3-


G|-----------------2---
D|------2-----0--0---0-
A|-3--3---3------------
E|---------------------


REFR x2
G|--------------------------------------------------------------------------
D|----------2-----------------------------------5-------------------9-------
A|--0----0-----0--------------2---------3----3-----3--------3----7-----7---- x2
E|--------------------3----3-----3------------------------------------------

Guitar Tab Creator is intended to store guitar tab created through the tool. It currently does not support in-line text editing. Any text you place in here will be lost. If you need to comment on your tab, please use the "Tab Notes" section located below.