Frozen With Fear

(/) Slide Up  (\) Slide Down  (h) Hammer On  (p) Pull Off  (b) Bend (r) Release (v) Vibrato


E|--------------------------------------------------------------------------------------------------
B|--------------------------------------------------------------------------------------------------
G|--------------------------------------------------------------------------------------------------
D|--------------------------------------------------------------------------------------------------
A|--2--------3--------4--------3--------2-----3-----4--------3--------2--------3--------4-----3-----
E|-----1--1-----1--1-----1--1-----1--1-----1-----1-----1--1-----1--1-----1--1-----1--1-----1-----1--



E|-----------------------------------------------------------------------------------------------
B|-----------------------------------------------------------------------------------------------
G|-----------------------------------------------------------------------------------------------
D|-----------------------------------------------------------------------------------------------
A|--------------------------------------------------------------------------------------3--2--1--
E|--0--0--0--1--0--0--0--0--0--1--0--0--3--2--1--2--0--0--0--1--0--0--0--0--0--1--0--0-----------



E|--------------------------------------------------------------------------------------------------
B|--------------------------------------------------------------------------------------------------
G|--------------------------------------------------------------------------------------------------
D|-----------------------------------------------------------------------------------4--3--1--------
A|--------------------------------------------------------------------------------------------4--3--
E|--2--2--2--2--2--2--2--2--3--3--3--3--3--3--3--3--1--1--1--1--1--1--1--1--2--2--2-----------------



E|--------------------------------------------------------------------------------------------------
B|--------------------------------------------------------------------------------------------------
G|--------------------------------------------------------------------------------------------------
D|--------------------------------------------------------------------------------------------------
A|--------------------------------------------------------------------------------------------------
E|--2--2--2--2--2--2--2--2--2--2--2--2--2--2--2--2--1--1--1--1--1--1--1--1--1--1--1--1--1--1--1--1--



E|--------------------------------------------------
B|--------------------------------------------------
G|--------------------------------------------------
D|--------------------------------------------------
A|---------------------------------9--10--9--9--10--
E|--5--0--0--7--0--0--9--0--10--0-------------------



E|--------------------------------------------------------------------------------------------------
B|--------------------------------------------------------------------------------------------------
G|--------------------------------------------------------------------------------------------------
D|--------------------------------------------------------------------------------------------------
A|--------------------------------------------------------------------------------------------------
E|--0--0--0--0--0--0--0--0--0--0--0--0--0--0--0--0--0--0--0--0--0--0--0--0--0--0--0--0--0--0--0--0--



E|--------------------------------------------------------------------------------------------------
B|--------------------------------------------------------------------------------------------------
G|--------------------------------------------------------------------------------------------------
D|--------------------------------------------------------------------------------------------------
A|--------------------3--2--------------------3--2--------------------------5--5--4--4--7--7--6--6--
E|--0--0--0--0--0--0--------1--1--1--1--1--1--------2--2--2--2--2--2--2--2--------------------------



E|--------------------------------------------------
B|--------------------------------------------------
G|--------------------------------------------------
D|--------------------------------------------------
A|--5--5--5--4--4--4--7--7--7--6--6--6--5--5--4--4--
E|--------------------------------------------------



E|--------------------------------------------------
B|--------------------------------------------------
G|--------------------------------------------------
D|--------------------------------------------------
A|--------------------------------------------------
E|--2--2--2--2--1--1--1--0--0--0--0--0--0--0--0--0--
http://www.guitartabcreator.com
Guitar Tab Creator is intended to store guitar tab created through the tool. It currently does not support in-line text editing. Any text you place in here will be lost. If you need to comment on your tab, please use the "Tab Notes" section located below.