Desecration

(/) Slide Up  (\) Slide Down  (h) Hammer On  (p) Pull Off  (b) Bend (r) Release (v) Vibrato


E|--------------------------------------------
B|--------------------------------------------
G|--------------------------------------------
D|--------------------------------------------
A|--3--2-----2--1-----------------------------
E|--------0--------0--0--0--0--0--3--0--0--2--



E|--------------------------------------------------
B|--------------------------------------------------
G|--------------------------------------------------
D|--------------------------------------------------
A|--------------------------------------------------
E|--0--0--0--0--0--0--0--0--0--0--0--0--0--0--0--0--



E|--------------------------------------------------------------------------------------------------
B|--------------------------------------------------------------------------------------------------
G|--------------------------------------------------------------------------------------------------
D|--------------------------------------------------------------------------------------------------
A|--------------------------3--3--3--2--2--2--------------------------------5--5--5--3--3--3--2--2--
E|--0--0--0--0--0--0--0--0--------------------3--3--2--2--2--2--2--2--2--2--------------------------



E|--------------------------------------------------
B|--------------------------------------------------
G|--------------------------------------------------
D|--------------------------------------------------
A|--10--9-----10--9-----------10--8--------5--3--2--
E|---------0---------0--0--0---------0--0-----------



E|--------------------------------------------------
B|--------------------------------------------------
G|--------------------------------------------------
D|--------------------------------------------------
A|--10--9-----10--9-----------10--9--------9--7--9--
E|---------0---------0--0--0---------0--0-----------



E|-----------------------------------------------------------------------------------------------------
B|-----------------------------------------------------------------------------------------------------
G|-----------------------------------------------------------------------------------------------------
D|-----------------------------------------------------------------------------------------------------
A|--------------------------8--8--8--10--10--10--8--8--------------------------6--6--6--8--8--8--6--6--
E|--7--7--7--7--7--7--7--7-----------------------------5--5--5--5--5--5--5--5--------------------------



E|-----------------------------------------------------------------------------------------
B|-----------------------------------------------------------------------------------------
G|-----------------------------------------------------------------------------------------
D|-----------------------------------------------------------------------------------------
A|--------------------------------------2--1-----------------------------------------------
E|--0--0--0--0--0--0--0--0--0--0--0--0--------2--0--0--0--0--0--0--0--0--0--0--0--0--0--0--



E|-----------------------------------------------------------
B|-----------------------------------------------------------
G|-----------------------------------------------------------
D|-----------------------------------------------------------
A|-----------------------------------------------------------
E|--0--0--0--1--0--0--0--0--0--0--0--0--2--0--0--0--0--0--0--



E|--
B|--
G|--
D|--
A|--
E|--
http://www.guitartabcreator.com
Guitar Tab Creator is intended to store guitar tab created through the tool. It currently does not support in-line text editing. Any text you place in here will be lost. If you need to comment on your tab, please use the "Tab Notes" section located below.