Nights in White Satin

(/) Slide Up  (\) Slide Down  (h) Hammer On  (p) Pull Off  (b) Bend (r) Release (v) Vibrato

E|-----------------|--------------|--0--------------|-----------------|-----
B|--0--------------|--0-----------|-----3--1--3--0--|-----------------|-----
G|-----2--0--2--2--|-----2--0--2--|-----------------|--2--0--2--2-----|-----
D|-----------------|--------------|-----------------|--------------2--|-----
A|-----------------|--------------|-----------------|-----------------|-----
E|-----------------|--------------|-----------------|-----------------|-----



E|-----------------|--------------|--0--------------|-----------------|--
B|--0--------------|--0-----------|-----3--1--3--0--|-----------------|--
G|-----2--0--2--2--|-----2--0--2--|-----------------|--2--0--2--2-----|--
D|-----------------|--------------|-----------------|--------------2--|--
A|-----------------|--------------|-----------------|-----------------|--
E|-----------------|--------------|-----------------|-----------------|--



E|--------------|--0-----0--0--|--3--2--3--2--0--|--|-----0--2--3--|--2--0-----0--2--|--
B|--------------|-----3--------|-----------------|--|--0-----------|--------3--------|--
G|-----0--2--2--|--------------|-----------------|--|--------------|-----------------|--
D|--2-----------|--------------|-----------------|--|--------------|-----------------|--
A|--------------|--------------|-----------------|--|--------------|-----------------|--
E|--------------|--------------|-----------------|--|--------------|-----------------|--



E|--0-----------0--|-----|-----0--2--3--|--5--3--2--3--5--|--3--2--0--2--3--|--2--|--
B|-----3--1--3-----|--4--|--0-----------|-----------------|-----------------|-----|--
G|-----------------|-----|--------------|-----------------|-----------------|-----|--
D|-----------------|-----|--------------|-----------------|-----------------|-----|--
A|-----------------|-----|--------------|-----------------|-----------------|-----|--
E|-----------------|-----|--------------|-----------------|-----------------|-----|--



E|--7--7--7--7--|--7--6--5--------|--5--7--8--7--8--|--7--5--7--8--7--|--
B|--------------|-----------8--5--|-----------------|-----------------|--
G|--------------|-----------------|-----------------|-----------------|--
D|--------------|-----------------|-----------------|-----------------|--
A|--------------|-----------------|-----------------|-----------------|--
E|--------------|-----------------|-----------------|-----------------|--
http://www.guitartabcreator.com
Guitar Tab Creator is intended to store guitar tab created through the tool. It currently does not support in-line text editing. Any text you place in here will be lost. If you need to comment on your tab, please use the "Tab Notes" section located below.