Lorena (Guitarra Principal)

(/) Slide Up  (\) Slide Down  (h) Hammer On  (p) Pull Off  (b) Bend (r) Release (v) Vibrato


E|---5-------5-------5-------5-------3-------3-------3-------3-----
B|-----5-------5-------5-------5-------3-------3-------3-------3---
G|-------5-------5-------5-------5-------3-------3-------3-------3-
D|-0-------0-------0-------0-------0-------0-------0-------0-------
A|-----------------------------------------------------------------
E|-----------------------------------------------------------------



E|---5-------5-------5-------5-------3-------3-------3-------3-----
B|-----5-------5-------5-------5-------3-------3-------3-------3---
G|-------5-------5-------5-------5-------3-------3-------3-------3-
D|-0-------0-------0-------0-------0-------0-------0-------0-------
A|-----------------------------------------------------------------
E|-----------------------------------------------------------------



E|--7v--6--7v--6--7--8--6--5--8b--6--7--6--7--6--9--10--8--6--4--7--3-----------------------------
B|---------------------------------------------------------------------4-----------4--------------
G|------------------------------------------------------------------------4-----------4-----------
D|---------------------------------------------------------------------------4-----------4--------
A|------------------------------------------------------------------------------0-----------0-----
E|---------------------------------------------------------------------------------------------0--
http://www.guitartabcreator.com
Guitar Tab Creator is intended to store guitar tab created through the tool. It currently does not support in-line text editing. Any text you place in here will be lost. If you need to comment on your tab, please use the "Tab Notes" section located below.