River Flows in You

(/) Slide Up  (\) Slide Down  (h) Hammer On  (p) Pull Off  (b) Bend (r) Release (v) Vibrato
E|--3--2--3--|--2--3-----3-----|-------3---2--3--|-2--3-----3----|------3---2--3---|------2--3-------3
B|--------3--|--------3-----3--|----0---------3--|-------3-----3-|----0--------3---|---3-----3-----3--
G|-----0-----|--0-----0--------|-0---------0-----|-0-----0--------|-0-------0------|------0------0----
D|--2--------|-----------------|-------2---------|----------------|-----2----------|-2----------------
A|-----------|-----3-----------|-----------------|----------------|----------------|-----------3------
E|-----------|-----------------|-----------------|----------------|----------------|------------------




E|--------------|----------|-------------|----------------|
B|------3-------|--3--0----|-------------|-----0--2--3----|
G|----0----3/4--|--0-----2-|--0-----0----|--0--0----------|
D|--------------|--0-------|-----4-------|-----2-----0--0-|
A|--3-----------|----------|-----------2-|----------------|
E|---------3----|----------|--------0----|--------3-------|
http://www.guitartabcreator.com
Guitar Tab Creator is intended to store guitar tab created through the tool. It currently does not support in-line text editing. Any text you place in here will be lost. If you need to comment on your tab, please use the "Tab Notes" section located below.