Port Lux - Third Solo

(/) Slide Up  (\) Slide Down  (h) Hammer On  (p) Pull Off  (b) Bend (r) Release (v) Vibrato


E|--------------------------------------------------13---------------------------------
B|--------------------------------------15--15b17v------15b17r15--13------13h15--13\1--
G|--------------------------14--15--17--------------------------------14---------------
D|--------------13--15--17-------------------------------------------------------------
A|--13--15--17-------------------------------------------------------------------------
E|-------------------------------------------------------------------------------------



E|-------------------------------------------------------------------
B|-------------------------------------------------------------------
G|--16v----16b17--14--12\1------12------12--14--7-----10--7-----5h7--
D|--------------------------14------14-------------7---------7-------
A|-------------------------------------------------------------------
E|-------------------------------------------------------------------



E|------------------------------------------15--15--15--17--15------
B|--------------------------------------------------------------13--
G|------------------------------17--16------------------------------
D|-----------10--9------17--15----------17--------------------------
A|--7--8--7---------10----------------------------------------------
E|------------------------------------------------------------------



E|--17--15--17--15--13--15--13--15--13------13--12--13--12------12----------------------------------
B|--------------------------------------17------------------13------13--17--13------13--------------
G|------------------------------------------------------------------------------16------16--12------
D|----------------------------------------------------------------------------------------------12--
A|--------------------------------------------------------------------------------------------------
E|--------------------------------------------------------------------------------------------------



E|-----------------------------------------------------------------------------------------------
B|-----------------------------------------------------------------------------------------------
G|--14--10------14--10------14--10------15--10------14--10------12b14--12b14--12--10------10/12--
D|----------10----------10----------10----------10----------10------------------------12---------
A|-----------------------------------------------------------------------------------------------
E|-----------------------------------------------------------------------------------------------



E|--------------------------------------------------------------15--17--17b18--
B|--------------------------------------------------15--16--18-----------------
G|--------------------------------------14--15--17-----------------------------
D|--------------------------13--15--17-----------------------------------------
A|--------------13--15--17-----------------------------------------------------
E|--13--15--17-----------------------------------------------------------------
http://www.guitartabcreator.com
Guitar Tab Creator is intended to store guitar tab created through the tool. It currently does not support in-line text editing. Any text you place in here will be lost. If you need to comment on your tab, please use the "Tab Notes" section located below.