Port Lux - First Solo

(/) Slide Up  (\) Slide Down  (h) Hammer On  (p) Pull Off  (b) Bend (r) Release (v) Vibrato
E|-----------------------------------------------------------------------------------------
B|--------------------9---------------------------11b13b11--8---------8--11--8-------------
G|-------------10b12-----10--10--8------8b10-------------------10b12------------10--10-----
D|--1/13v---------------------------10-----------------------------------------------------
A|-----------------------------------------------------------------------------------------
E|-----------------------------------------------------------------------------------------



E|------------------------------------------------------------------------------3/6\3-----
B|-----------------------------------------------------------------------3/6\3------------
G|--8------8b10----3h5--3h5---------------------------------------3/7\3-------------------
D|-----10--------------------8--5--8-----------------------5/8\5--------------------------
A|------------------------------------10--8--6--8-----------------------------------------
E|----------------------------------------------------------------------------------------



E|--6/10\6--11/15\11--18----------17--16--15--
B|--------------------------------------------
G|--------------------------------------------
D|--------------------------------------------
A|--------------------------------------------
E|--------------------------------------------
http://www.guitartabcreator.com
Guitar Tab Creator is intended to store guitar tab created through the tool. It currently does not support in-line text editing. Any text you place in here will be lost. If you need to comment on your tab, please use the "Tab Notes" section located below.