Cybercops Theme - Cyber Heart Tab

(/) Slide Up  (\) Slide Down  (h) Hammer On  (p) Pull Off  (b) Bend (r) Release (v) Vibrato
E|--------------17--------------15b17r15b17---------------------------------------------
B|--13--15--17------13--15--13------------------------------------5---------------------
G|-----------------------------------------------------------2/5-----7b9r7--5--7b9------
D|--------------------------------------------------------------------------------------
A|--------------------------------------------------------------------------------------
E|--------------------------------------------------------------------------------------



E|-------------------------------------------------------------------------------------
B|--13b15--13----12h13--13------15b17--15--13h15--15------15b17r15--13--15--13--15-----
G|-------------------------------------------------------------------------------------
D|-------------------------------------------------------------------------------------
A|-------------------------------------------------------------------------------------
E|-------------------------------------------------------------------------------------



E|------15--12v-------------------------------------16--14b16--------------------------------
B|--13------------------------------------------12-------------------------------------------
G|------------------------------------13--11-------------------------------------------------
D|------------------------14-----------------------------------------------------------------
A|-----------------10/11----------11---------------------------------------------------------
E|-------------------------------------------------------------------------------------------



E|----------------------------------------------------------------------------------
B|----------------------------------------------------------------------------------
G|--13b15--13----12h13--13------15b17--15--13h15--15------15b17r15--13--15--13--15--
D|----------------------------------------------------------------------------------
A|----------------------------------------------------------------------------------
E|----------------------------------------------------------------------------------



E|-----------------------------------15h19h20p19p15--------------15h19p15--
B|--15--13-----------------------17------------------17------17------------
G|----------14---------------16--------------------------16----------------
D|-----------------------17------------------------------------------------
A|----------------15h19----------------------------------------------------
E|-------------------------------------------------------------------------



E|--15p12------------12h15p12------------
B|---------13p12h13------------13p12-----
G|---------------------------------------
D|---------------------------------------
A|---------------------------------------
E|---------------------------------------



E|--12--12--12--12--12------------12--12--12--12--12----------12--12--12--12--12----------13--13--
B|----------------------15--13------------------------15--13----------------------15--13----------
G|------------------------------------------------------------------------------------------------
D|------------------------------------------------------------------------------------------------
A|------------------------------------------------------------------------------------------------
E|------------------------------------------------------------------------------------------------



E|--13--13--13--13--13--12--------13--13--13--13--13--12--------13--13--13--13--13--12------13--12--
B|--------------------------15----------------------------15----------------------------15----------
G|--------------------------------------------------------------------------------------------------
D|--------------------------------------------------------------------------------------------------
A|--------------------------------------------------------------------------------------------------
E|--------------------------------------------------------------------------------------------------



E|-----------------------------------------------------------------------------------------
B|--12--13--15--13--12--13----12--13--17--15--13--15----15b17r15--15--13--15----15p13------
G|-------------------------------------------------------------------------------------14--
D|-----------------------------------------------------------------------------------------
A|-----------------------------------------------------------------------------------------
E|-----------------------------------------------------------------------------------------



E|-------------------------------------------------------------------------------
B|-------------------------------------------------------------------------------
G|-------------------------------------------------------------------------------
D|-------------------------------------------------------------------------------
A|---------------------------------3----3--2--2--------------5--4--5----7--3-----
E|--5--5----0--3--5--5--5----0--3----------------5--5--3--3-------------------5--



E|----------------------------------------------------------------------------
B|----------------------------------------------------------------------------
G|----------------------------------------------------------------------------
D|----------------------------------------------------------------------------
A|-------------------------3----3--2--2--------------5--4--5----7----7/12-----
E|--0--3--5--5--5----0--3----------------5--5--3--3---------------------------



E|-------------------------------------------------------------------
B|-------------------------------------------------------------------
G|--------------------------------10----------10--12--14--14----10v--
D|--10--------12--10----14--12----------14---------------------------
A|------14-----------------------------------------------------------
E|-------------------------------------------------------------------



E|--------------12--13--15--13--12--13--12--------------------------------------12------------------
B|--12--13--15------------------------------15--13--12--------------12--13--15------15--13--12------
G|------------------------------------------------------14--12--14------------------------------14--
D|--------------------------------------------------------------------------------------------------
A|--------------------------------------------------------------------------------------------------
E|--------------------------------------------------------------------------------------------------
http://www.guitartabcreator.com
Guitar Tab Creator is intended to store guitar tab created through the tool. It currently does not support in-line text editing. Any text you place in here will be lost. If you need to comment on your tab, please use the "Tab Notes" section located below.