daydream guitar

(/) Slide Up  (\) Slide Down  (h) Hammer On  (p) Pull Off  (b) Bend (r) Release (v) Vibrato

E|--------------------------------------------------
B|--------5-----------7-----------------------------
G|-----6-----6-----8-----8--------4-----------4-----
D|--7-----------9--------------6-----6-----6-----6--
A|--------------------------7-----------7-----------
E|--------------------------------------------------



E|--------------------------
B|--------------------------
G|--------4-----------4-----
D|-----6-----6-----6-----6--
A|--7-----------4-----------
E|--------------------------
http://www.guitartabcreator.com
Guitar Tab Creator is intended to store guitar tab created through the tool. It currently does not support in-line text editing. Any text you place in here will be lost. If you need to comment on your tab, please use the "Tab Notes" section located below.