daydream

(/) Slide Up  (\) Slide Down  (h) Hammer On  (p) Pull Off  (b) Bend (r) Release (v) Vibrato

E|--------------------------------
B|--------------------------------
G|--------------------------------
D|--------------------------------
A|--------------------------------
E|--9--9--9--9--9--9--9--9--7--9--



E|-----------------------------------------------------------
B|-----------------------------------------------------------
G|-----------------------------------------------------------
D|-----------------------------------------------------------
A|-----------------------------------------------------7--7--
E|--9--9--9--9--9--9--9--9--7--9--5--5--0--0--5--5--5--------



E|---------------------------------
B|---------------------------------
G|-----------------------11--9-----
D|------------------------------9--
A|--9--9--9--9--9--9--9------------
E|---------------------------------



E|---------------------------------
B|---------------------------------
G|--------------9--9--9--11--9-----
D|--7--7--9--9------------------9--
A|---------------------------------
E|---------------------------------



E|----------------------------
B|----------------------------
G|--------------9--9--11--11--
D|--7--7--9--9----------------
A|----------------------------
E|----------------------------
http://www.guitartabcreator.com
Guitar Tab Creator is intended to store guitar tab created through the tool. It currently does not support in-line text editing. Any text you place in here will be lost. If you need to comment on your tab, please use the "Tab Notes" section located below.