Take- by Spencer Nezat

[code]
(/) Slide Up (\) Slide Down (h) Hammer On (p) Pull Off (b) Bend (r) Release (v) Vibrato


E|-----------------------|-----------------------|--------------|--------------|-----------------------
B|-----------------------|-----------------------|--------------|--------------|-----------------------
G|-----------------------|-----------------------|--------------|--------------|-----------------------
D|-----------------------|-----------------------|--------------|--------------|-----------------------
A|-----------------------|-----------------------|-----------2--|-----------2--|-----------------------
E|--7--5--5--4--3--0--7--|--7--5--5--4--3--0--7--|--7--5--0-----|--7--5--0-----|--5--5--4--3--0--7-----



E|--------------------|--------------------|--------------|--------------|-----------------------
B|--------------------|--------------------|--------------|--------------|-----------------------
G|--------------------|--------------------|--------------|--------------|-----------------------
D|--------------------|--------------------|--------------|--------------|-----------------------
A|--------------------|--------------------|--------------|--------------|-----------------------
E|--5--5--4--3--0--7--|--5--5--4--3--0--7--|--7--5--0--7--|--7--5--0--7--|--5--5--4--3--0--7-----



E|--------------------|--------------------------|--------------------|-----------------------
B|--------------------|--------------------------|--------------------|-----------------------
G|--------------------|--------------------------|--------------------|-----------------------
D|--------------------|--------------------------|--------------------|-----------------------
A|--------------------|--------------------------|--------------------|-----------------------
E|--5--5--4--3--0--7--|--7--5--5--4--3--0--7--5--|--5--4--3--0--7--5--|--0--7--5--5--4--3--0--



E|-----------------------
B|-----------------------
G|-----------------------
D|-----------------------
A|-----------------------
E|--7--5--5--4--3--0--7--
[/code]
[url]http://www.guitartabcreator.com[/url]
Guitar Tab Creator is intended to store guitar tab created through the tool. It currently does not support in-line text editing. Any text you place in here will be lost. If you need to comment on your tab, please use the "Tab Notes" section located below.