Home- by Spencer Nezat

(/) Slide Up  (\) Slide Down  (h) Hammer On  (p) Pull Off  (b) Bend (r) Release (v) Vibrato


E|--------------------------------------------------------------------------------------
B|--------------------------------------------------------------------------------------
G|--------------------------------------------------------------------------------------
D|--------------------------------------------------------------------------------------
A|--6--------6--6--------6--6--------6--6--------6--6--------6--6--------6--6--------6--
E|-----6--4--------6--4--------6--4--------6--4--------6--4--------6--4--------6--4-----



E|---------------------------------------------------------------------------------------
B|---------------------------------------------------------------------------------------
G|---------------------------------------------------------------------------------------
D|---------------------------------------------------------------------------------------
A|--6--------6--6--------6--6--------6--6--------6---------------6--6--------6--6--------
E|-----6--4--------6--4--------6--4--------6--4-------6/19\6--4--------6--4--------6--4--



E|---------------------------
B|---------------------------
G|---------------------------
D|---------------------------
A|--6--------6--6--------1/6
E|-----6--4--------6-/-4------
http://www.guitartabcreator.com
Guitar Tab Creator is intended to store guitar tab created through the tool. It currently does not support in-line text editing. Any text you place in here will be lost. If you need to comment on your tab, please use the "Tab Notes" section located below.