song1

(/) Slide Up  (\) Slide Down  (h) Hammer On  (p) Pull Off  (b) Bend (r) Release (v) Vibrato
E|-----4-----------------4----------2-------0--0----------
B|-----5-----------------4----------2-------2--2----4--4--
G|-----4----4--4h6p4-----4----------2-------1--1----5--5--
D|-----6--------------6--6----6--4--4----4--2--2----4--4--
A|--4--4--------------------------------------------------
E|--------------------------------------------------------



E|-----4----4--4-------------4----4--4-----------------------------------4----4--4-------
B|-----5----5--5-------------5----5--5-------------2----2--2-------------5----5--5-------
G|-----4----4--4-------------4----4--4-------------3----3--3-------------4----4--4-------
D|-----6----6--6-------------6----6--6-------------2----2--2-------------6----6--6-------
A|--4--4----4--4----------4--4----4--4-------------4----4--4----------4--4----4--4-------
E|------------------4--7------------------7--4--2--2----2--2----2--5---------------------



E|----------------------------------------------4----4--4--
B|--5--5----5--5----5--4--4----4--4-------------5----5--5--
G|--6--6----6--6----6--5--5----5--5-------------4----4--4--
D|--5--5----5--5----5--4--4----4--4-------------6----6--6--
A|--7--7----7--7----7--6--6----6--6----------4--4----4--4--
E|--5--5----5--5----5--4--4----4--4----4--7----------------



E|-----------------------------------------------------------------
B|-----------------------------------------------------------------
G|-----------4-----------2--2-----------------4--------9--9--------
D|-----2--------2--------2--2--6--6-----2--------2-----9--9--------
A|--4-----4--------4--2--0--0--6--6--4-----4--------4--7--7-----2--
E|-----------------------------4--4--------------------------4-----
http://www.guitartabcreator.com
Guitar Tab Creator is intended to store guitar tab created through the tool. It currently does not support in-line text editing. Any text you place in here will be lost. If you need to comment on your tab, please use the "Tab Notes" section located below.