song 3

(/) Slide Up  (\) Slide Down  (h) Hammer On  (p) Pull Off  (b) Bend (r) Release (v) Vibrato

E|--------------------------
B|--------------------------
G|--------------------------
D|--2--2--2--2--2--2--2--2--
A|--4--4--4--4--4--4--4--4--
E|--------------------------



E|--------------------------
B|--------------------------
G|--------------------------
D|--1--1--1--1--1--1--1--1--
A|--3--3--3--3--3--3--3--3--
E|--------------------------



E|--------------------------
B|--1--1--1--1--1--1--1--1--
G|--2--2--2--2--2--2--2--2--
D|--3--3--3--3--3--3--3--3--
A|--------------------------
E|--------------------------



E|--------------------------------------------------
B|--0--0--0--0--0--0--0--0--5--5--5--5--5--5--5--5--
G|--1--1--1--1--1--1--1--1--3--3--3--3--3--3--3--3--
D|--2--2--2--2--2--2--2--2--5--5--5--5--5--5--5--5--
A|--------------------------4--4--4--4--4--4--4--4--
E|--------------------------------------------------
http://www.guitartabcreator.com
Guitar Tab Creator is intended to store guitar tab created through the tool. It currently does not support in-line text editing. Any text you place in here will be lost. If you need to comment on your tab, please use the "Tab Notes" section located below.