end

(/) Slide Up  (\) Slide Down  (h) Hammer On  (p) Pull Off  (b) Bend (r) Release (v) Vibrato


E|--4--4----4--4----4--4----4--4----4--4----4--4----4--4----4--4--
B|--5--5----5--5----5--5----5--5----5--5----5--5----5--5----5--5--
G|--6--6----6--6----6--6----6--6----4--4----4--4----4--4----4--4--
D|--6--6----6--6----6--6----6--6----6--6----6--6----6--6----6--6--
A|--4--4----4--4----4--4----4--4----4--4----4--4----4--4----4--4--
E|----------------------------------------------------------------



E|--4--4----4--4----4--4----4--4----4--4----4--4-----0------------4--
B|--7--7----7--7----7--7----7--7----4--4----4--4--9-----9--7\4p0--5--
G|--4--4----4--4----4--4----4--4----4--4----4--4------------------4--
D|--6--6----6--6----6--6----6--6----6--6----6--6------------------6--
A|--4--4----4--4----4--4----4--4----------------------------------4--
E|-------------------------------------------------------------------
http://www.guitartabcreator.com
Guitar Tab Creator is intended to store guitar tab created through the tool. It currently does not support in-line text editing. Any text you place in here will be lost. If you need to comment on your tab, please use the "Tab Notes" section located below.