California Paradise

(/) Slide Up  (\) Slide Down  (h) Hammer On  (p) Pull Off  (b) Bend (r) Release (v) Vibrato
E|----------------------------------------------------------8--------8--------8----------
B|--10--10--15\-----------------------------10-----8--8b10-----8b10-----8b10-----8b10r8--
G|-------------------7b9--5h7p5-----5--7/9------9----------------------------------------
D|-------------------------------7-------------------------------------------------------
A|---------------------------------------------------------------------------------------
E|---------------------------------------------------------------------------------------



E|-----------------------------------------8--10--10b11r10p8------|------------------------------
B|----------------------------------8--10---------------------10--|-------5h8p5-----5h8p5--------
G|--7p5-----5-----5h7p5-----5--7/9--------------------------------|--7b9---------7---------7-----
D|-------7-----7---------7----------------------------------------|------------------------------
A|----------------------------------------------------------------|------------------------------
E|----------------------------------------------------------------|------------------------------



E|----------------------------------5----8b9--5h8p5--------------------------------------------
B|--5h8p5-----5h8p5-----5--8--8b10-------------------5--5h8p5--5--5h8p5------------------------
G|---------7---------7---------------------------------------------------5--5h7p5-----5--7-----
D|---------------------------------------------------------------------------------7-----------
A|---------------------------------------------------------------------------------------------
E|---------------------------------------------------------------------------------------------



E|----------5--------------------------------------------------------------------------------------
B|-------5-----8b9--8--7--5------------------------------------------------------------------------
G|--7b8----------------------7b8r7p5-----7-----5h7p5-----------5--------------------5--------------
D|------------------------------------7-----7---------7p5h6h7-----5--7--7--5--7--7--5--7--5--7--7--
A|----------------------------------------------------------------5--7--7--5--7--7--3--7--5--7--7--
E|----------------------------------------------------------------3--5--5--3--5--5-----5--3--5--5--
http://www.guitartabcreator.com
Guitar Tab Creator is intended to store guitar tab created through the tool. It currently does not support in-line text editing. Any text you place in here will be lost. If you need to comment on your tab, please use the "Tab Notes" section located below.