My Kinda Party Outro

(/) Slide Up  (\) Slide Down  (h) Hammer On  (p) Pull Off  (b) Bend (r) Release (v) Vibrato

E|------------------------------------------------------------------
B|------------------------------------------------------------------
G|--------8------8--------------8------8--------------8------8------
D|--8h10-----10-----10----8h10-----10-----10----8h10-----10-----10--
A|------------------------------------------------------------------
E|------------------------------------------------------------------



E|-----------------8-----------8--------8--------8--------8---------
B|--------10b0--8-----8--11b0-----11b0-----11b0-----11b0------------
G|--8h10------------------------------------------------------------
D|------------------------------------------------------------------
A|------------------------------------------------------------------
E|------------------------------------------------------------------



E|-----
B|-----
G|-----
D|-----
A|-----
E|-----



E|----------------------------
B|----------------------------
G|----------------------------
D|--8----------------------8--
A|-----10--8------------------
E|------------11--8v--6b0-----



E|--11--11--13b0p11--------11--11--13b0p11------------
B|--------------------------------------------13--13--
G|----------------------------------------------------
D|----------------------------------------------------
A|----------------------------------------------------
E|----------------------------------------------------
http://www.guitartabcreator.com
Guitar Tab Creator is intended to store guitar tab created through the tool. It currently does not support in-line text editing. Any text you place in here will be lost. If you need to comment on your tab, please use the "Tab Notes" section located below.