My Kinda Party (first solo)

(/) Slide Up  (\) Slide Down  (h) Hammer On  (p) Pull Off  (b) Bend (r) Release (v) Vibrato

E|--------------------
B|-----------11b\0----
G|--10b\0------------- 10b8
D|-------------------- x2
A|--------------------
E|--------------------


E|-----------------------------------------------------------
B|----------------------------------------------------11b----
G|---------------------------------8h10p8------10b-----------
D|---------------8h10--------8h10----------10----------------
A|-------6h8\10--------8h10----------------------------------
E|--6h8------------------------------------------------------




http://www.guitartabcreator.com
Guitar Tab Creator is intended to store guitar tab created through the tool. It currently does not support in-line text editing. Any text you place in here will be lost. If you need to comment on your tab, please use the "Tab Notes" section located below.