Empty Lies - Redza Tab

(/) Slide Up  (\) Slide Down  (h) Hammer On  (p) Pull Off  (b) Bend (r) Release (v) Vibrato


E|--------------------------------------------------------------------------------------------------
B|--------------------------------------------------------------------------------------------------
G|--------------------------------------------------------------------------------------------------
D|--------------------------------------------------------------------------------------------------
A|--------------------------------------------------------------------------------------------------
E|--0--0--0--0--0--0--0--0--0--0--0--0--0--0--0--0--0--0--0--0--0--0--0--0--0--0--0--0--0--0--0--0--



E|--------------------------------------------------------------------------------------------
B|--------------------------------------------------------------------------------------------
G|--------------------------------------------------------------------------------------------
D|--------------------------------------------------------------------------------------------
A|--------------------------------------------------------------------------------------------
E|--5--8--0--0--0--0--4--7--0--0--0--0--5--8--0--0--5--8--0--0--0--0--4--7--0--0--0--0--8--7--



E|--------------------------------------------------------------------
B|--------------------------------------------------------------------
G|--------------------------------------------------------------------
D|--------------------------------------------------------------------
A|-----------------------------------------------------------------0--
E|--0--0--0--0--0--0--0--0--0--0--0--0--0--0--0--0--0--0--0--0--0--1--



E|-----------------------------------------------------------------------
B|-----------------------------------------------------------------------
G|-----------------------------------------------------------------------
D|-----------------------------------------------------------------3-----
A|-----------------------------------------------------------------5-----
E|--0--0--0--0--0--0--0--0--0--0--0--0--0--0--0--0--0--0--0--0--0--------



E|--------------------------------------------------------------------------------------------------
B|--------------------------------------------------------------------------------------------------
G|--------------------------------------------------------------------------------------------------
D|--------------------------------------------------------------------------------------------------
A|--------5--7-----5--7-----7--8-----5--7-----3--5--------5--7-----5--7-----7--8-----5--7-----3--5--
E|--0--0--------0--------0--------0--------0--------0--0--------0--------0--------0--------0--------



E|---------------------------------------------------------------------------------------------
B|---------------------------------------------------------------------------------------------
G|---------------------------------------------------------------------------------------------
D|---------------------------------------------------------------------------------------------
A|--------5--------5--------5--------5--------5--------7--------7--------8--------10--------8--
E|--8--8-----8--8-----8--8-----8--8-----8--8-----7--7-----7--7-----7--7-----7--7------7--7-----



E|---------------------------------------------------
B|---------------------------------------------------
G|---------------------------------------------------
D|---------------------------------------------------
A|--8--7--5-----8--7--5-----8--7--5-----8--7--8--10--
E|-----------7-----------7-----------7---------------



E|-----------------------------------------------------------------------------------------
B|-----------------------------------------------------------------------------------------
G|-----------------------------------------------------------------------------------------
D|--------------------------------------------------------------------------------------2--
A|--------------------------------------------------------------------------------------2--
E|--0--0--3--0--5--0--6--0--5--0--3--0--2--0--2--3--0--0--3--0--5--0--6--0--5--0--3--0--2--



E|-----------------------------------------------------------------
B|-----------------------------------------------------------------
G|-----------------------------------------------------------------
D|-----------------------------------------------------------------
A|-----------------------------------------------------------------
E|--0--0--0----0--0--0--0----0--0--0--0----0--0--0--0--0--0--0--0--



E|--------------
B|--------------
G|--------------
D|--------------
A|--0--0--0--0--
E|--1--1--1--1--



E|-----
B|-----
G|-----
D|-----
A|--0--
E|--1--



E|-----
B|-----
G|-----
D|-----
A|--0--
E|--0--



E|-----------------
B|-----------------
G|-----------------
D|--------------0--
A|--0--0--0--0--0--
E|--1--1--1--1--0--



E|--------------------------------------------------
B|--------------------------------------------------
G|--------------------------------------------------
D|--0--3--2--1--0--3--2--1--0--3--2--1--0--3--3--3--
A|--0--3--2--1--0--3--2--1--0--3--2--1--0--3--3--3--
E|--0--3--2--1--0--3--2--1--0--3--2--1--0--3--3--3--



E|-----------------------------------------------
B|-----------------------------------------------
G|-----------------------------------------------
D|--0--3--2--1--0--3--2--1--0--3--2--1--0--0--3--
A|--0--3--2--1--0--3--2--1--0--3--2--1--0--0--3--
E|--0--3--2--1--0--3--2--1--0--3--2--1--0--0--3--
http://www.guitartabcreator.com
Guitar Tab Creator is intended to store guitar tab created through the tool. It currently does not support in-line text editing. Any text you place in here will be lost. If you need to comment on your tab, please use the "Tab Notes" section located below.