Depresso Redza Tab

(/) Slide Up  (\) Slide Down  (h) Hammer On  (p) Pull Off  (b) Bend (r) Release (v) Vibrato


E|-------------------------------------------------------------
B|-------------------------------------------------------------
G|-------------------------------------------------------------
D|----------------------------------8-----10-------------------
A|---8---8---8-7-8---8---8-10-8-7-8-8-----10----12----12----10-
E|-0---0---0-------0---0------------8-----10-10----10----10----



E|--------------------------------------------------------------------
B|--------------------------------------------------------------------
G|--------------------------------------------------------------------
D|------------------------------------10-8-7--------------------------
A|---8---8---8-7-8---8---8-10-8-7-8----------10-8-7-8---8-7-5-7-5-4-5-
E|-0---0---0-------0---0------------0-----------------0---------------



E|-----------------------------------------------------------
B|-----------------------------------------------------------
G|-----------------------------------------------------------
D|-0---------------------------------------------------------
A|-0---------------------------------------------------------
E|-0-0-0-0-0-0-0-0-0-0-0-0-0-0-0-0-0-0-0-0-0-3-0-0-5-0-0-6-0-



E|-------------------------------------------------------------
B|-------------------------------------------------------------
G|-------------------------------------------------------------
D|-0-------------------------3-3-----5-5-----7-7-----8-8-------
A|-0-----------------------------5-5-----7-7-----8-8-----10-10-
E|-0-0-0-0-0-0-0-0-0-0-0-0-0-----------------------------------



E|--------------------------------------------------------------------------------
B|--------------------------------------------------------------------------------
G|--------------------------------------------------------------------------------
D|-------------------------------4-3-2--------------------------------------------
A|---------5---------7---------8-4-3-2---------5---------7---------8--------------
E|-1-0-0-0---3-0-0-0---5-0-0-0---4-3-2-1-0-0-0---3-0-0-0---5-0-0-0---0-0-0--0-0-0-



E|------------
B|------------
G|------------
D|-8-----8-10-
A|-8-----8-10-
E|-8-----8-10-



E|---------------------------------------------------------------
B|---------------------------------------------------------------
G|---------------------------------------------------------5-----
D|-7-5-3---7-5-3---7-5-3-5-7-5-3-5-7-3-7-5-3---7-5-3---5-3---5-3-
A|-------5-------3---------------------------5-------3-----------
E|---------------------------------------------------------------



E|----------------------------------------------------------------------------------------------
B|----------------------------------------------------------------------------------------------
G|----------------------------------------------------------------------------------------------
D|------------------3--------------------5------------------3---5-5-5-5-3-3-3-3-6-6-6-6-5-5-5-5-
A|------------------3--------------------5------------------3---5-5-5-5-3-3-3-3-6-6-6-6-5-5-5-5-
E|-0-0-0-0-12-0-0-0-3-0-0-0-0-0-12-0-0-0-5-0-0-0-0-12-0-0-0-3-0-5-5-5-5-3-3-3-3-6-6-6-6-5-5-5-5-



E|-----------------------------------------------------------
B|-----------------------------------------------------------
G|-----------------------------------------------------------
D|-------------------3---5-----------------------------------
A|-0-----0-----0-----3---5---0-----0-----0-------------------
E|-1-0-0-1-0-0-1-0-0-3-0-5-0-1-0-0-1-0-0-1-0-0--0-0-0--0-0-0-



E|--------------------------------------------------------------------------------
B|--------------------------------------------------------------------------------
G|--------------------------------------------------------------------------------
D|--------------------------------------------------------------------------------
A|--------------------------------------------------------------------------------
E|-12\0-0-0-0-0-0-0-0-0-0-0--0-0-0--0-0-0--12\0-0-0-0-0-0-0-0-0-3-3-3-5-5-5-3-3-3-



E|-----------------------------------------------------------
B|-----------------------------------------------------------
G|-----------------------------------------------------------
D|-7---------7-8-7---------7---6-----6-----5-----5-----3-5-3-
A|-5---------5-6-5---------5---6-----6-----5-----5-----3-5-3-
E|---0-0-0-0-------0-0-0-0---0-6-0-0-6-0-0-5-0-0-5-0-0-3-5-3-



E|---------------------------------------------------------------
B|---------------------------------------------------------------
G|---------------------------------------------------------------
D|---------------------------------------------------------------
A|-5-----5-----5-6-5-----5-----5---------------------------------
E|---0-0---0-0-------0-0---0-0---0-6-0-0-6-0-0-5-0-0-5-0-0-3-5-3-



E|------------
B|------------
G|------------
D|-8-----8-10-
A|-8-----8-10-
E|-8-----8-10-



E|---------------------------------------------------------------
B|---------------------------------------------------------------
G|---------------------------------------------------------5-----
D|-7-5-3---7-5-3---7-5-3-5-7-5-3-5-7-3-7-5-3---7-5-3---5-3---5-3-
A|-------5-------3---------------------------5-------3-----------
E|---------------------------------------------------------------



E|-----------------------------------------------------
B|-----------------------------------------------------
G|-----------------------------------------------------
D|-7-------5-------9-9-9-9-9-9-9-9-10-10-10-10-9-9-9-9-
A|-5-5-5-5-3-3-3-3-7-7-7-7-7-7-7-7-8--8--8--8--7-7-7-7-
E|-----------------------------------------------------



E|----------------------------------------------------------------8-----
B|-10-8-6---10-8-6---10-8-6-8-10-8-6-8-10-6-10-8-6---10-8-6---8-6---8-6-
G|--------7--------5-------------------------------7--------5-----------
D|----------------------------------------------------------------------
A|----------------------------------------------------------------------
E|----------------------------------------------------------------------



E|-----------------------------
B|-----------------------------
G|-----------------------------
D|-0-----------0-1-0-1-3-2-1-2-
A|-0-----------0-1-0-1-3-2-1-2-
E|-0-----------0-1-0-1-3-2-1-2-



E|-------------------------
B|-------------------------
G|-------------------------
D|-------------------------
A|-------------------------
E|-0-0-0-0-0-0-0-0-0-0-0-0-



E|-----------
B|-----------
G|-----------
D|-----------
A|-0-0-0-0-0-
E|-1-1-1-1-1-



E|-----------------------------------------
B|-----------------------------------------
G|-----------------------------------7-7-7-
D|-----------------------------------------
A|-----------------------------------5-5-5-
E|-0-0-0-0-0-0-0-0-0-0-0-0-0-0-0-0-0-------



E|------------------------------------------------------
B|------------------------------------------------------
G|-----7-----------5-----------9-----------10-------9---
D|---3---3---3---2---2---2---5---5---5---7----7---5---5-
A|-5-------5---3-------3---7-------7---8--------7-------
E|------------------------------------------------------
http://www.guitartabcreator.com
Guitar Tab Creator is intended to store guitar tab created through the tool. It currently does not support in-line text editing. Any text you place in here will be lost. If you need to comment on your tab, please use the "Tab Notes" section located below.