MCR - NANANANAN

(/) Slide Up  (\) Slide Down  (h) Hammer On  (p) Pull Off  (b) Bend (r) Release (v) Vibrato


E|-----------------------------------------------------------------------------------
B|-----------------------------------------------------------------------------------
G|--------------------------------2--------------------------------------------------
D|--4--4--2--4--4--2--4--4--2--4-----4--2--------------------------------2-----------
A|-----------------------------------------4--4--2--4--4--2--4--4--2--4-----4--3--2--
E|-----------------------------------------------------------------------------------



E|------------------------------------------------------------------------------------------
B|------------------------------------------------------------------------------------------
G|---------------------------------------------------------------------8--8--8--8--8--8--8--
D|-------------------2----2-----2----2--3--4----4--2--4----4--2--------8--8--8--8--8--8--8--
A|--2-----2----2-------------4-----------------------------------------6--6--6--6--6--6--6--
E|-----5----------5-------------------------------------------------------------------------
http://www.guitartabcreator.com
Guitar Tab Creator is intended to store guitar tab created through the tool. It currently does not support in-line text editing. Any text you place in here will be lost. If you need to comment on your tab, please use the "Tab Notes" section located below.