Licks Cocaine

(/) Slide Up  (\) Slide Down  (h) Hammer On  (p) Pull Off  (b) Bend (r) Release (v) Vibrato


E|------------------------------------------------
B|------------------------------------------------
G|------------------------------------------------
D|-------------0----0h2----0-------0-----------2--
A|--0h2-----------------------0h2-----0-----------
E|---------------------------------------3--0-----



E|--------------------------
B|--3--0--------------------
G|--------2--0--1-----------
D|-----------------2--0--2--
A|--------------------------
E|--------------------------
http://www.guitartabcreator.com
Guitar Tab Creator is intended to store guitar tab created through the tool. It currently does not support in-line text editing. Any text you place in here will be lost. If you need to comment on your tab, please use the "Tab Notes" section located below.